ISO-10303-21;
HEADER;
/* Generated by software containing ST-Developer
 * from STEP Tools, Inc. (www.steptools.com) 
 */

FILE_DESCRIPTION(
/* description */ (''),
/* implementation_level */ '2;1');

FILE_NAME(
/* name */ 
'Z:\\80-CAD\X2\5171670930D530A130A430EB\X0\\\\X2\88FD54C1\X0\3D\X2\30C7
30FC30BF\X0\\\33-US\\US-25.stp',
/* time_stamp */ '2015-01-06T16:21:25+09:00',
/* author */ ('yamaki'),
/* organization */ (''),
/* preprocessor_version */ 'ST-DEVELOPER v15.6',
/* originating_system */ 'Autodesk Inventor 2015',
/* authorisation */ '');

FILE_SCHEMA (('AUTOMOTIVE_DESIGN { 1 0 10303 214 3 1 1 }'));
ENDSEC;

DATA;
#10=MECHANICAL_DESIGN_GEOMETRIC_PRESENTATION_REPRESENTATION('',(#14,#15),
#438);
#11=SHAPE_REPRESENTATION_RELATIONSHIP('SRR','None',#447,#12);
#12=ADVANCED_BREP_SHAPE_REPRESENTATION($,(#13),#437);
#13=MANIFOLD_SOLID_BREP('\X2\30BD30EA30C330C9\X0\3',#245);
#14=STYLED_ITEM('',(#457),#243);
#15=STYLED_ITEM('',(#456),#13);
#16=CONICAL_SURFACE('',#272,15.0404043537296,38.7233377931078);
#17=PLANE('',#260);
#18=PLANE('',#268);
#19=PLANE('',#276);
#20=PLANE('',#280);
#21=PLANE('',#284);
#22=TOROIDAL_SURFACE('',#258,18.457247898861,1.2);
#23=TOROIDAL_SURFACE('',#262,26.1136601652634,1.8);
#24=TOROIDAL_SURFACE('',#266,26.1136601652634,1.8);
#25=TOROIDAL_SURFACE('',#270,16.4782475582795,0.5);
#26=TOROIDAL_SURFACE('',#274,12.7443679144521,1.6);
#27=SPHERICAL_SURFACE('',#256,17.4000000000012);
#28=SPHERICAL_SURFACE('',#286,12.7000000000015);
#29=SPHERICAL_SURFACE('',#287,16.000000000001);
#30=FACE_BOUND('',#73,.T.);
#31=FACE_BOUND('',#75,.T.);
#32=FACE_BOUND('',#77,.T.);
#33=FACE_BOUND('',#79,.T.);
#34=FACE_BOUND('',#81,.T.);
#35=FACE_BOUND('',#83,.T.);
#36=FACE_BOUND('',#84,.T.);
#37=FACE_BOUND('',#85,.T.);
#38=FACE_BOUND('',#87,.T.);
#39=FACE_BOUND('',#89,.T.);
#40=FACE_BOUND('',#91,.T.);
#41=FACE_BOUND('',#93,.T.);
#42=FACE_BOUND('',#94,.T.);
#43=FACE_BOUND('',#95,.T.);
#44=FACE_BOUND('',#97,.T.);
#45=FACE_BOUND('',#99,.T.);
#46=FACE_BOUND('',#101,.T.);
#47=FACE_BOUND('',#103,.T.);
#48=FACE_BOUND('',#105,.T.);
#49=FACE_BOUND('',#107,.T.);
#50=FACE_BOUND('',#109,.T.);
#51=FACE_BOUND('',#111,.T.);
#52=FACE_OUTER_BOUND('',#72,.T.);
#53=FACE_OUTER_BOUND('',#74,.T.);
#54=FACE_OUTER_BOUND('',#76,.T.);
#55=FACE_OUTER_BOUND('',#78,.T.);
#56=FACE_OUTER_BOUND('',#80,.T.);
#57=FACE_OUTER_BOUND('',#82,.T.);
#58=FACE_OUTER_BOUND('',#86,.T.);
#59=FACE_OUTER_BOUND('',#88,.T.);
#60=FACE_OUTER_BOUND('',#90,.T.);
#61=FACE_OUTER_BOUND('',#92,.T.);
#62=FACE_OUTER_BOUND('',#96,.T.);
#63=FACE_OUTER_BOUND('',#98,.T.);
#64=FACE_OUTER_BOUND('',#100,.T.);
#65=FACE_OUTER_BOUND('',#102,.T.);
#66=FACE_OUTER_BOUND('',#104,.T.);
#67=FACE_OUTER_BOUND('',#106,.T.);
#68=FACE_OUTER_BOUND('',#108,.T.);
#69=FACE_OUTER_BOUND('',#110,.T.);
#70=FACE_OUTER_BOUND('',#112,.T.);
#71=FACE_OUTER_BOUND('',#113,.T.);
#72=EDGE_LOOP('',(#177));
#73=EDGE_LOOP('',(#178));
#74=EDGE_LOOP('',(#179));
#75=EDGE_LOOP('',(#180));
#76=EDGE_LOOP('',(#181));
#77=EDGE_LOOP('',(#182));
#78=EDGE_LOOP('',(#183));
#79=EDGE_LOOP('',(#184));
#80=EDGE_LOOP('',(#185));
#81=EDGE_LOOP('',(#186));
#82=EDGE_LOOP('',(#187));
#83=EDGE_LOOP('',(#188));
#84=EDGE_LOOP('',(#189));
#85=EDGE_LOOP('',(#190));
#86=EDGE_LOOP('',(#191));
#87=EDGE_LOOP('',(#192));
#88=EDGE_LOOP('',(#193));
#89=EDGE_LOOP('',(#194));
#90=EDGE_LOOP('',(#195));
#91=EDGE_LOOP('',(#196));
#92=EDGE_LOOP('',(#197));
#93=EDGE_LOOP('',(#198));
#94=EDGE_LOOP('',(#199));
#95=EDGE_LOOP('',(#200));
#96=EDGE_LOOP('',(#201));
#97=EDGE_LOOP('',(#202));
#98=EDGE_LOOP('',(#203));
#99=EDGE_LOOP('',(#204));
#100=EDGE_LOOP('',(#205));
#101=EDGE_LOOP('',(#206));
#102=EDGE_LOOP('',(#207));
#103=EDGE_LOOP('',(#208));
#104=EDGE_LOOP('',(#209));
#105=EDGE_LOOP('',(#210));
#106=EDGE_LOOP('',(#211));
#107=EDGE_LOOP('',(#212));
#108=EDGE_LOOP('',(#213));
#109=EDGE_LOOP('',(#214));
#110=EDGE_LOOP('',(#215));
#111=EDGE_LOOP('',(#216));
#112=EDGE_LOOP('',(#217));
#113=EDGE_LOOP('',(#218));
#114=CIRCLE('',#248,2.25);
#115=CIRCLE('',#249,2.25);
#116=CIRCLE('',#251,2.25);
#117=CIRCLE('',#252,2.25);
#118=CIRCLE('',#254,0.750000000000007);
#119=CIRCLE('',#255,0.749999999999995);
#120=CIRCLE('',#257,17.2664577118377);
#121=CIRCLE('',#259,17.3258770489651);
#122=CIRCLE('',#261,26.1136601652634);
#123=CIRCLE('',#263,27.9136601652634);
#124=CIRCLE('',#265,27.9136601652635);
#125=CIRCLE('',#267,26.1136601652634);
#126=CIRCLE('',#269,16.4782475582795);
#127=CIRCLE('',#271,16.0881597243124);
#128=CIRCLE('',#273,13.9926489831468);
#129=CIRCLE('',#275,12.7443679144521);
#130=CIRCLE('',#277,11.9940600852873);
#131=CIRCLE('',#279,11.9940600852873);
#132=CIRCLE('',#281,12.4078675522667);
#133=CIRCLE('',#283,12.4078675522667);
#134=CIRCLE('',#285,12.0352392963975);
#135=VERTEX_POINT('',#374);
#136=VERTEX_POINT('',#376);
#137=VERTEX_POINT('',#379);
#138=VERTEX_POINT('',#381);
#139=VERTEX_POINT('',#384);
#140=VERTEX_POINT('',#386);
#141=VERTEX_POINT('',#389);
#142=VERTEX_POINT('',#392);
#143=VERTEX_POINT('',#395);
#144=VERTEX_POINT('',#398);
#145=VERTEX_POINT('',#401);
#146=VERTEX_POINT('',#404);
#147=VERTEX_POINT('',#407);
#148=VERTEX_POINT('',#410);
#149=VERTEX_POINT('',#413);
#150=VERTEX_POINT('',#416);
#151=VERTEX_POINT('',#419);
#152=VERTEX_POINT('',#422);
#153=VERTEX_POINT('',#425);
#154=VERTEX_POINT('',#428);
#155=VERTEX_POINT('',#431);
#156=EDGE_CURVE('',#135,#135,#114,.T.);
#157=EDGE_CURVE('',#136,#136,#115,.T.);
#158=EDGE_CURVE('',#137,#137,#116,.T.);
#159=EDGE_CURVE('',#138,#138,#117,.T.);
#160=EDGE_CURVE('',#139,#139,#118,.T.);
#161=EDGE_CURVE('',#140,#140,#119,.T.);
#162=EDGE_CURVE('',#141,#141,#120,.T.);
#163=EDGE_CURVE('',#142,#142,#121,.T.);
#164=EDGE_CURVE('',#143,#143,#122,.T.);
#165=EDGE_CURVE('',#144,#144,#123,.T.);
#166=EDGE_CURVE('',#145,#145,#124,.T.);
#167=EDGE_CURVE('',#146,#146,#125,.T.);
#168=EDGE_CURVE('',#147,#147,#126,.T.);
#169=EDGE_CURVE('',#148,#148,#127,.T.);
#170=EDGE_CURVE('',#149,#149,#128,.T.);
#171=EDGE_CURVE('',#150,#150,#129,.T.);
#172=EDGE_CURVE('',#151,#151,#130,.T.);
#173=EDGE_CURVE('',#152,#152,#131,.T.);
#174=EDGE_CURVE('',#153,#153,#132,.T.);
#175=EDGE_CURVE('',#154,#154,#133,.T.);
#176=EDGE_CURVE('',#155,#155,#134,.T.);
#177=ORIENTED_EDGE('',*,*,#156,.F.);
#178=ORIENTED_EDGE('',*,*,#157,.F.);
#179=ORIENTED_EDGE('',*,*,#158,.F.);
#180=ORIENTED_EDGE('',*,*,#159,.F.);
#181=ORIENTED_EDGE('',*,*,#160,.F.);
#182=ORIENTED_EDGE('',*,*,#161,.T.);
#183=ORIENTED_EDGE('',*,*,#162,.F.);
#184=ORIENTED_EDGE('',*,*,#160,.T.);
#185=ORIENTED_EDGE('',*,*,#163,.F.);
#186=ORIENTED_EDGE('',*,*,#162,.T.);
#187=ORIENTED_EDGE('',*,*,#164,.F.);
#188=ORIENTED_EDGE('',*,*,#156,.T.);
#189=ORIENTED_EDGE('',*,*,#158,.T.);
#190=ORIENTED_EDGE('',*,*,#163,.T.);
#191=ORIENTED_EDGE('',*,*,#165,.F.);
#192=ORIENTED_EDGE('',*,*,#164,.T.);
#193=ORIENTED_EDGE('',*,*,#166,.F.);
#194=ORIENTED_EDGE('',*,*,#165,.T.);
#195=ORIENTED_EDGE('',*,*,#167,.F.);
#196=ORIENTED_EDGE('',*,*,#166,.T.);
#197=ORIENTED_EDGE('',*,*,#167,.T.);
#198=ORIENTED_EDGE('',*,*,#157,.T.);
#199=ORIENTED_EDGE('',*,*,#159,.T.);
#200=ORIENTED_EDGE('',*,*,#168,.F.);
#201=ORIENTED_EDGE('',*,*,#169,.F.);
#202=ORIENTED_EDGE('',*,*,#168,.T.);
#203=ORIENTED_EDGE('',*,*,#170,.F.);
#204=ORIENTED_EDGE('',*,*,#169,.T.);
#205=ORIENTED_EDGE('',*,*,#171,.F.);
#206=ORIENTED_EDGE('',*,*,#170,.T.);
#207=ORIENTED_EDGE('',*,*,#171,.T.);
#208=ORIENTED_EDGE('',*,*,#172,.F.);
#209=ORIENTED_EDGE('',*,*,#173,.F.);
#210=ORIENTED_EDGE('',*,*,#172,.T.);
#211=ORIENTED_EDGE('',*,*,#174,.F.);
#212=ORIENTED_EDGE('',*,*,#173,.T.);
#213=ORIENTED_EDGE('',*,*,#175,.F.);
#214=ORIENTED_EDGE('',*,*,#174,.T.);
#215=ORIENTED_EDGE('',*,*,#175,.T.);
#216=ORIENTED_EDGE('',*,*,#176,.F.);
#217=ORIENTED_EDGE('',*,*,#176,.T.);
#218=ORIENTED_EDGE('',*,*,#161,.F.);
#219=CYLINDRICAL_SURFACE('',#247,2.25);
#220=CYLINDRICAL_SURFACE('',#250,2.25);
#221=CYLINDRICAL_SURFACE('',#253,0.750000000000001);
#222=CYLINDRICAL_SURFACE('',#264,27.9136601652635);
#223=CYLINDRICAL_SURFACE('',#278,11.9940600852873);
#224=CYLINDRICAL_SURFACE('',#282,12.4078675522667);
#225=ADVANCED_FACE('',(#52,#30),#219,.F.);
#226=ADVANCED_FACE('',(#53,#31),#220,.F.);
#227=ADVANCED_FACE('',(#54,#32),#221,.F.);
#228=ADVANCED_FACE('',(#55,#33),#27,.T.);
#229=ADVANCED_FACE('',(#56,#34),#22,.F.);
#230=ADVANCED_FACE('',(#57,#35,#36,#37),#17,.T.);
#231=ADVANCED_FACE('',(#58,#38),#23,.T.);
#232=ADVANCED_FACE('',(#59,#39),#222,.T.);
#233=ADVANCED_FACE('',(#60,#40),#24,.T.);
#234=ADVANCED_FACE('',(#61,#41,#42,#43),#18,.T.);
#235=ADVANCED_FACE('',(#62,#44),#25,.F.);
#236=ADVANCED_FACE('',(#63,#45),#16,.T.);
#237=ADVANCED_FACE('',(#64,#46),#26,.T.);
#238=ADVANCED_FACE('',(#65,#47),#19,.T.);
#239=ADVANCED_FACE('',(#66,#48),#223,.F.);
#240=ADVANCED_FACE('',(#67,#49),#20,.T.);
#241=ADVANCED_FACE('',(#68,#50),#224,.F.);
#242=ADVANCED_FACE('',(#69,#51),#21,.T.);
#243=ADVANCED_FACE('',(#70),#28,.T.);
#244=ADVANCED_FACE('',(#71),#29,.T.);
#245=CLOSED_SHELL('',(#225,#226,#227,#228,#229,#230,#231,#232,#233,#234,
#235,#236,#237,#238,#239,#240,#241,#242,#243,#244));
#246=AXIS2_PLACEMENT_3D('placement',#372,#288,#289);
#247=AXIS2_PLACEMENT_3D('',#373,#290,#291);
#248=AXIS2_PLACEMENT_3D('',#375,#292,#293);
#249=AXIS2_PLACEMENT_3D('',#377,#294,#295);
#250=AXIS2_PLACEMENT_3D('',#378,#296,#297);
#251=AXIS2_PLACEMENT_3D('',#380,#298,#299);
#252=AXIS2_PLACEMENT_3D('',#382,#300,#301);
#253=AXIS2_PLACEMENT_3D('',#383,#302,#303);
#254=AXIS2_PLACEMENT_3D('',#385,#304,#305);
#255=AXIS2_PLACEMENT_3D('',#387,#306,#307);
#256=AXIS2_PLACEMENT_3D('',#388,#308,#309);
#257=AXIS2_PLACEMENT_3D('',#390,#310,#311);
#258=AXIS2_PLACEMENT_3D('',#391,#312,#313);
#259=AXIS2_PLACEMENT_3D('',#393,#314,#315);
#260=AXIS2_PLACEMENT_3D('',#394,#316,#317);
#261=AXIS2_PLACEMENT_3D('',#396,#318,#319);
#262=AXIS2_PLACEMENT_3D('',#397,#320,#321);
#263=AXIS2_PLACEMENT_3D('',#399,#322,#323);
#264=AXIS2_PLACEMENT_3D('',#400,#324,#325);
#265=AXIS2_PLACEMENT_3D('',#402,#326,#327);
#266=AXIS2_PLACEMENT_3D('',#403,#328,#329);
#267=AXIS2_PLACEMENT_3D('',#405,#330,#331);
#268=AXIS2_PLACEMENT_3D('',#406,#332,#333);
#269=AXIS2_PLACEMENT_3D('',#408,#334,#335);
#270=AXIS2_PLACEMENT_3D('',#409,#336,#337);
#271=AXIS2_PLACEMENT_3D('',#411,#338,#339);
#272=AXIS2_PLACEMENT_3D('',#412,#340,#341);
#273=AXIS2_PLACEMENT_3D('',#414,#342,#343);
#274=AXIS2_PLACEMENT_3D('',#415,#344,#345);
#275=AXIS2_PLACEMENT_3D('',#417,#346,#347);
#276=AXIS2_PLACEMENT_3D('',#418,#348,#349);
#277=AXIS2_PLACEMENT_3D('',#420,#350,#351);
#278=AXIS2_PLACEMENT_3D('',#421,#352,#353);
#279=AXIS2_PLACEMENT_3D('',#423,#354,#355);
#280=AXIS2_PLACEMENT_3D('',#424,#356,#357);
#281=AXIS2_PLACEMENT_3D('',#426,#358,#359);
#282=AXIS2_PLACEMENT_3D('',#427,#360,#361);
#283=AXIS2_PLACEMENT_3D('',#429,#362,#363);
#284=AXIS2_PLACEMENT_3D('',#430,#364,#365);
#285=AXIS2_PLACEMENT_3D('',#432,#366,#367);
#286=AXIS2_PLACEMENT_3D('',#433,#368,#369);
#287=AXIS2_PLACEMENT_3D('',#434,#370,#371);
#288=DIRECTION('axis',(0.,0.,1.));
#289=DIRECTION('refdir',(1.,0.,0.));
#290=DIRECTION('center_axis',(0.,5.53267288019151E-16,1.));
#291=DIRECTION('ref_axis',(1.,0.,0.));
#292=DIRECTION('center_axis',(0.,5.53267288019151E-16,1.));
#293=DIRECTION('ref_axis',(1.,0.,0.));
#294=DIRECTION('center_axis',(0.,-5.53267288019151E-16,-1.));
#295=DIRECTION('ref_axis',(1.,0.,0.));
#296=DIRECTION('center_axis',(0.,5.53267288019151E-16,1.));
#297=DIRECTION('ref_axis',(1.,0.,0.));
#298=DIRECTION('center_axis',(0.,5.53267288019151E-16,1.));
#299=DIRECTION('ref_axis',(1.,0.,0.));
#300=DIRECTION('center_axis',(0.,-5.53267288019151E-16,-1.));
#301=DIRECTION('ref_axis',(1.,0.,0.));
#302=DIRECTION('center_axis',(0.,5.53267288019151E-16,1.));
#303=DIRECTION('ref_axis',(0.,-1.,3.70529759665957E-16));
#304=DIRECTION('center_axis',(0.,5.53267288019151E-16,1.));
#305=DIRECTION('ref_axis',(0.,-1.,3.70529759665957E-16));
#306=DIRECTION('center_axis',(0.,5.53267288019151E-16,1.));
#307=DIRECTION('ref_axis',(0.,-1.,3.70529759665957E-16));
#308=DIRECTION('center_axis',(6.12323399573677E-17,0.,1.));
#309=DIRECTION('ref_axis',(1.,0.,0.));
#310=DIRECTION('center_axis',(0.,5.53267288019151E-16,1.));
#311=DIRECTION('ref_axis',(0.,-1.,3.70529759665957E-16));
#312=DIRECTION('center_axis',(0.,5.53267288019151E-16,1.));
#313=DIRECTION('ref_axis',(1.,0.,0.));
#314=DIRECTION('center_axis',(0.,5.53267288019151E-16,1.));
#315=DIRECTION('ref_axis',(0.,-1.,3.70529759665957E-16));
#316=DIRECTION('center_axis',(0.,-5.53267288019151E-16,-1.));
#317=DIRECTION('ref_axis',(-1.,0.,0.));
#318=DIRECTION('center_axis',(0.,5.53267288019151E-16,1.));
#319=DIRECTION('ref_axis',(0.,-1.,3.70529759665957E-16));
#320=DIRECTION('center_axis',(0.,5.53267288019151E-16,1.));
#321=DIRECTION('ref_axis',(1.,0.,0.));
#322=DIRECTION('center_axis',(0.,5.53267288019151E-16,1.));
#323=DIRECTION('ref_axis',(0.,-1.,3.70529759665957E-16));
#324=DIRECTION('center_axis',(0.,5.53267288019151E-16,1.));
#325=DIRECTION('ref_axis',(0.,-1.,3.70529759665957E-16));
#326=DIRECTION('center_axis',(0.,5.53267288019151E-16,1.));
#327=DIRECTION('ref_axis',(0.,-1.,3.70529759665957E-16));
#328=DIRECTION('center_axis',(0.,5.53267288019151E-16,1.));
#329=DIRECTION('ref_axis',(1.,0.,0.));
#330=DIRECTION('center_axis',(0.,5.53267288019151E-16,1.));
#331=DIRECTION('ref_axis',(0.,-1.,3.70529759665957E-16));
#332=DIRECTION('center_axis',(0.,5.53267288019151E-16,1.));
#333=DIRECTION('ref_axis',(1.,0.,0.));
#334=DIRECTION('center_axis',(0.,5.53267288019151E-16,1.));
#335=DIRECTION('ref_axis',(0.,-1.,3.70529759665957E-16));
#336=DIRECTION('center_axis',(0.,5.53267288019151E-16,1.));
#337=DIRECTION('ref_axis',(1.,0.,0.));
#338=DIRECTION('center_axis',(0.,5.53267288019151E-16,1.));
#339=DIRECTION('ref_axis',(0.,-1.,3.70529759665957E-16));
#340=DIRECTION('center_axis',(0.,-5.53267288019151E-16,-1.));
#341=DIRECTION('ref_axis',(0.,-1.,3.70529759665957E-16));
#342=DIRECTION('center_axis',(0.,5.53267288019151E-16,1.));
#343=DIRECTION('ref_axis',(0.,-1.,3.70529759665957E-16));
#344=DIRECTION('center_axis',(0.,5.53267288019151E-16,1.));
#345=DIRECTION('ref_axis',(1.,0.,0.));
#346=DIRECTION('center_axis',(0.,5.53267288019151E-16,1.));
#347=DIRECTION('ref_axis',(0.,-1.,3.70529759665957E-16));
#348=DIRECTION('center_axis',(0.,5.53267288019151E-16,1.));
#349=DIRECTION('ref_axis',(1.,0.,0.));
#350=DIRECTION('center_axis',(0.,5.53267288019151E-16,1.));
#351=DIRECTION('ref_axis',(0.,-1.,3.70529759665957E-16));
#352=DIRECTION('center_axis',(0.,5.53267288019151E-16,1.));
#353=DIRECTION('ref_axis',(0.,-1.,3.70529759665957E-16));
#354=DIRECTION('center_axis',(0.,5.53267288019151E-16,1.));
#355=DIRECTION('ref_axis',(0.,-1.,3.70529759665957E-16));
#356=DIRECTION('center_axis',(0.,-5.53267288019151E-16,-1.));
#357=DIRECTION('ref_axis',(-1.,0.,0.));
#358=DIRECTION('center_axis',(0.,5.53267288019151E-16,1.));
#359=DIRECTION('ref_axis',(0.,-1.,3.70529759665957E-16));
#360=DIRECTION('center_axis',(0.,5.53267288019151E-16,1.));
#361=DIRECTION('ref_axis',(0.,-1.,3.70529759665957E-16));
#362=DIRECTION('center_axis',(0.,5.53267288019151E-16,1.));
#363=DIRECTION('ref_axis',(0.,-1.,3.70529759665957E-16));
#364=DIRECTION('center_axis',(0.,5.53267288019151E-16,1.));
#365=DIRECTION('ref_axis',(1.,0.,0.));
#366=DIRECTION('center_axis',(0.,5.53267288019151E-16,1.));
#367=DIRECTION('ref_axis',(0.,-1.,3.70529759665957E-16));
#368=DIRECTION('center_axis',(6.12323399573677E-17,0.,1.));
#369=DIRECTION('ref_axis',(1.,0.,0.));
#370=DIRECTION('center_axis',(6.12323399573677E-17,0.,1.));
#371=DIRECTION('ref_axis',(1.,0.,0.));
#372=CARTESIAN_POINT('',(0.,0.,0.));
#373=CARTESIAN_POINT('Origin',(0.,-22.75,-80.7891480567576));
#374=CARTESIAN_POINT('',(-2.25,-22.75,3.96127575186256E-12));
#375=CARTESIAN_POINT('Origin',(0.,-22.75,3.96127575186256E-12));
#376=CARTESIAN_POINT('',(2.25,-22.75,3.70000000000004));
#377=CARTESIAN_POINT('Origin',(0.,-22.75,3.70000000000005));
#378=CARTESIAN_POINT('Origin',(0.,22.75,-80.7891480567576));
#379=CARTESIAN_POINT('',(-2.25,22.75,3.94351218346856E-12));
#380=CARTESIAN_POINT('Origin',(0.,22.75,3.94351218346856E-12));
#381=CARTESIAN_POINT('',(2.25,22.75,3.70000000000002));
#382=CARTESIAN_POINT('Origin',(0.,22.75,3.70000000000003));
#383=CARTESIAN_POINT('Origin',(0.,-3.46149121749687E-15,-14.7331204503159));
#384=CARTESIAN_POINT('',(0.,-0.750000000000011,-15.4838286922072));
#385=CARTESIAN_POINT('Origin',(0.,-3.8768335305817E-15,-15.4838286922072));
#386=CARTESIAN_POINT('',(0.,-0.749999999999998,-13.9824122084246));
#387=CARTESIAN_POINT('Origin',(0.,-3.04614890441203E-15,-13.9824122084246));
#388=CARTESIAN_POINT('Origin',(0.,5.55111512312578E-15,1.90000000000003));
#389=CARTESIAN_POINT('',(0.,-17.2664577118377,-0.251612903225736));
#390=CARTESIAN_POINT('Origin',(0.,4.55065318951056E-15,-0.251612903225744));
#391=CARTESIAN_POINT('Origin',(0.,4.44089209850063E-15,-0.399999999999436));
#392=CARTESIAN_POINT('',(0.,-17.3258770489651,7.85455034346683E-12));
#393=CARTESIAN_POINT('Origin',(0.,4.68986237811324E-15,7.84483589200136E-12));
#394=CARTESIAN_POINT('Origin',(0.,-21.7197686071143,3.95558585886135E-12));
#395=CARTESIAN_POINT('',(0.,-26.1136601652634,5.6621374255883E-14));
#396=CARTESIAN_POINT('Origin',(0.,4.68986237810892E-15,3.99680288865056E-14));
#397=CARTESIAN_POINT('Origin',(0.,4.44089209850063E-15,1.80000000000005));
#398=CARTESIAN_POINT('',(0.,-27.9136601652634,1.80000000000007));
#399=CARTESIAN_POINT('Origin',(0.,5.6857434965434E-15,1.80000000000005));
#400=CARTESIAN_POINT('Origin',(0.,5.71340686094432E-15,1.84999999999998));
#401=CARTESIAN_POINT('',(0.,-27.9136601652635,1.89999999999992));
#402=CARTESIAN_POINT('Origin',(0.,5.74107022534523E-15,1.8999999999999));
#403=CARTESIAN_POINT('Origin',(0.,4.44089209850063E-15,1.8999999999999));
#404=CARTESIAN_POINT('',(0.,-26.1136601652634,3.70000000000004));
#405=CARTESIAN_POINT('Origin',(0.,6.73695134377977E-15,3.70000000000003));
#406=CARTESIAN_POINT('Origin',(0.,-21.2959538617715,3.70000000000004));
#407=CARTESIAN_POINT('',(0.,-16.4782475582795,3.70000000000004));
#408=CARTESIAN_POINT('Origin',(0.,6.73695134377978E-15,3.70000000000003));
#409=CARTESIAN_POINT('Origin',(0.,8.88178419700125E-15,4.20000000000003));
#410=CARTESIAN_POINT('',(0.,-16.0881597243124,3.88721975479449));
#411=CARTESIAN_POINT('Origin',(0.,6.84053390977851E-15,3.88721975479448));
#412=CARTESIAN_POINT('Origin',(0.,7.56350008511354E-15,5.19394110086113));
#413=CARTESIAN_POINT('',(0.,-13.9926489831468,6.50066244692779));
#414=CARTESIAN_POINT('Origin',(0.,8.28646626044857E-15,6.50066244692778));
#415=CARTESIAN_POINT('Origin',(0.,8.88178419700125E-15,5.49976566227003));
#416=CARTESIAN_POINT('',(0.,-12.7443679144521,7.09976566227003));
#417=CARTESIAN_POINT('Origin',(0.,8.61793047164453E-15,7.09976566227003));
#418=CARTESIAN_POINT('Origin',(0.,-12.3692139998697,7.09976566227003));
#419=CARTESIAN_POINT('',(0.,-11.9940600852873,7.09976566227003));
#420=CARTESIAN_POINT('Origin',(0.,8.61793047164453E-15,7.09976566227003));
#421=CARTESIAN_POINT('Origin',(0.,8.45201511093895E-15,6.79988283113501));
#422=CARTESIAN_POINT('',(0.,-11.9940600852873,6.5));
#423=CARTESIAN_POINT('Origin',(0.,8.28609975023338E-15,6.49999999999999));
#424=CARTESIAN_POINT('Origin',(0.,-12.200963818777,6.5));
#425=CARTESIAN_POINT('',(0.,-12.4078675522667,6.5));
#426=CARTESIAN_POINT('Origin',(0.,8.28609975023337E-15,6.49999999999999));
#427=CARTESIAN_POINT('Origin',(0.,8.13533407582335E-15,6.22749938831588));
#428=CARTESIAN_POINT('',(0.,-12.4078675522667,5.95499877663178));
#429=CARTESIAN_POINT('Origin',(0.,7.98456840141332E-15,5.95499877663177));
#430=CARTESIAN_POINT('Origin',(0.,-12.2215534243321,5.95499877663188));
#431=CARTESIAN_POINT('',(0.,-12.0352392963975,5.95499877663198));
#432=CARTESIAN_POINT('Origin',(0.,7.98456840141343E-15,5.95499877663197));
#433=CARTESIAN_POINT('Origin',(0.,5.55111512312578E-15,1.89999999999998));
#434=CARTESIAN_POINT('Origin',(0.,5.55111512312578E-15,2.00000000000005));
#435=UNCERTAINTY_MEASURE_WITH_UNIT(LENGTH_MEASURE(0.01),#439,
'DISTANCE_ACCURACY_VALUE',
'Maximum model space distance between geometric entities at asserted c
onnectivities');
#436=UNCERTAINTY_MEASURE_WITH_UNIT(LENGTH_MEASURE(1.E-6),#439,
'DISTANCE_ACCURACY_VALUE',
'Maximum model space distance between geometric entities at asserted c
onnectivities');
#437=(
GEOMETRIC_REPRESENTATION_CONTEXT(3)
GLOBAL_UNCERTAINTY_ASSIGNED_CONTEXT((#435))
GLOBAL_UNIT_ASSIGNED_CONTEXT((#439,#442,#440))
REPRESENTATION_CONTEXT('','3D')
);
#438=(
GEOMETRIC_REPRESENTATION_CONTEXT(3)
GLOBAL_UNCERTAINTY_ASSIGNED_CONTEXT((#436))
GLOBAL_UNIT_ASSIGNED_CONTEXT((#439,#442,#440))
REPRESENTATION_CONTEXT('','3D')
);
#439=(
LENGTH_UNIT()
NAMED_UNIT(*)
SI_UNIT(.MILLI.,.METRE.)
);
#440=(
NAMED_UNIT(*)
SI_UNIT($,.STERADIAN.)
SOLID_ANGLE_UNIT()
);
#441=DIMENSIONAL_EXPONENTS(0.,0.,0.,0.,0.,0.,0.);
#442=(
CONVERSION_BASED_UNIT('degree',#444)
NAMED_UNIT(#441)
PLANE_ANGLE_UNIT()
);
#443=(
NAMED_UNIT(*)
PLANE_ANGLE_UNIT()
SI_UNIT($,.RADIAN.)
);
#444=PLANE_ANGLE_MEASURE_WITH_UNIT(PLANE_ANGLE_MEASURE(0.01745329252),#443);
#445=SHAPE_DEFINITION_REPRESENTATION(#446,#447);
#446=PRODUCT_DEFINITION_SHAPE('',$,#449);
#447=SHAPE_REPRESENTATION('',(#246),#437);
#448=PRODUCT_DEFINITION_CONTEXT('part definition',#453,'design');
#449=PRODUCT_DEFINITION('3325AA','3325AA',#450,#448);
#450=PRODUCT_DEFINITION_FORMATION('',$,#455);
#451=PRODUCT_RELATED_PRODUCT_CATEGORY('3325AA','3325AA',(#455));
#452=APPLICATION_PROTOCOL_DEFINITION('international standard',
'automotive_design',2009,#453);
#453=APPLICATION_CONTEXT(
'Core Data for Automotive Mechanical Design Process');
#454=PRODUCT_CONTEXT('part definition',#453,'mechanical');
#455=PRODUCT('3325AA','3325AA',$,(#454));
#456=PRESENTATION_STYLE_ASSIGNMENT((#458));
#457=PRESENTATION_STYLE_ASSIGNMENT((#459));
#458=SURFACE_STYLE_USAGE(.BOTH.,#460);
#459=SURFACE_STYLE_USAGE(.BOTH.,#461);
#460=SURFACE_SIDE_STYLE($,(#462));
#461=SURFACE_SIDE_STYLE($,(#463));
#462=SURFACE_STYLE_FILL_AREA(#464);
#463=SURFACE_STYLE_FILL_AREA(#465);
#464=FILL_AREA_STYLE($,(#466));
#465=FILL_AREA_STYLE($,(#467));
#466=FILL_AREA_STYLE_COLOUR($,#468);
#467=FILL_AREA_STYLE_COLOUR($,#469);
#468=COLOUR_RGB('',0.63921568627451,0.63921568627451,0.686274509803922);
#469=COLOUR_RGB('',0.956862745098039,0.956862745098039,0.956862745098039);
ENDSEC;
END-ISO-10303-21;
